ISO-10303-21;
HEADER;
/* Generated by software containing ST-Developer
 * from STEP Tools, Inc. (www.steptools.com) 
 */

FILE_DESCRIPTION(
/* description */ ('Norm.ipt Template'),
/* implementation_level */ '2;1');

FILE_NAME(
/* name */ 
'S:\\Marketing\\Dokumentation\\3D CAD Daten\\Customized\\OPTIMA\\A_000
95-T1-ATS-OPTIMA\\Zubeh\X\F6r ATS\\MT_WST00100291 Kupplung.stp',
/* time_stamp */ '2017-11-29T14:15:22+01:00',
/* author */ ('michael.schutter'),
/* organization */ (''),
/* preprocessor_version */ 'ST-DEVELOPER v16.5',
/* originating_system */ 'Autodesk Inventor 2017',
/* authorisation */ '');

FILE_SCHEMA (('AUTOMOTIVE_DESIGN { 1 0 10303 214 3 1 1 }'));
ENDSEC;

DATA;
#10=MECHANICAL_DESIGN_GEOMETRIC_PRESENTATION_REPRESENTATION('',(#13),#663);
#11=SHAPE_REPRESENTATION_RELATIONSHIP('SRR','None',#672,#12);
#12=ADVANCED_BREP_SHAPE_REPRESENTATION('',(#14),#662);
#13=STYLED_ITEM('',(#681),#14);
#14=MANIFOLD_SOLID_BREP('Volumenk\X\F6rper1',#379);
#15=CONICAL_SURFACE('',#400,12.2113248654052,30.);
#16=CONICAL_SURFACE('',#406,4.9,45.);
#17=CONICAL_SURFACE('',#411,4.9,45.);
#18=CONICAL_SURFACE('',#416,4.9,45.);
#19=CONICAL_SURFACE('',#421,4.9,45.);
#20=FACE_BOUND('',#85,.T.);
#21=FACE_BOUND('',#88,.T.);
#22=FACE_BOUND('',#90,.T.);
#23=FACE_BOUND('',#92,.T.);
#24=FACE_BOUND('',#94,.T.);
#25=FACE_BOUND('',#96,.T.);
#26=FACE_BOUND('',#98,.T.);
#27=FACE_BOUND('',#100,.T.);
#28=FACE_BOUND('',#102,.T.);
#29=FACE_BOUND('',#104,.T.);
#30=FACE_BOUND('',#106,.T.);
#31=FACE_BOUND('',#108,.T.);
#32=FACE_BOUND('',#110,.T.);
#33=FACE_BOUND('',#111,.T.);
#34=FACE_BOUND('',#113,.T.);
#35=FACE_BOUND('',#115,.T.);
#36=FACE_BOUND('',#117,.T.);
#37=FACE_BOUND('',#119,.T.);
#38=FACE_BOUND('',#120,.T.);
#39=FACE_BOUND('',#121,.T.);
#40=FACE_BOUND('',#122,.T.);
#41=FACE_BOUND('',#123,.T.);
#42=FACE_BOUND('',#124,.T.);
#43=PLANE('',#390);
#44=PLANE('',#391);
#45=PLANE('',#395);
#46=PLANE('',#399);
#47=PLANE('',#405);
#48=PLANE('',#426);
#49=PLANE('',#429);
#50=PLANE('',#431);
#51=PLANE('',#435);
#52=PLANE('',#436);
#53=PLANE('',#437);
#54=FACE_OUTER_BOUND('',#79,.T.);
#55=FACE_OUTER_BOUND('',#80,.T.);
#56=FACE_OUTER_BOUND('',#81,.T.);
#57=FACE_OUTER_BOUND('',#82,.T.);
#58=FACE_OUTER_BOUND('',#83,.T.);
#59=FACE_OUTER_BOUND('',#84,.T.);
#60=FACE_OUTER_BOUND('',#86,.T.);
#61=FACE_OUTER_BOUND('',#87,.T.);
#62=FACE_OUTER_BOUND('',#89,.T.);
#63=FACE_OUTER_BOUND('',#91,.T.);
#64=FACE_OUTER_BOUND('',#93,.T.);
#65=FACE_OUTER_BOUND('',#95,.T.);
#66=FACE_OUTER_BOUND('',#97,.T.);
#67=FACE_OUTER_BOUND('',#99,.T.);
#68=FACE_OUTER_BOUND('',#101,.T.);
#69=FACE_OUTER_BOUND('',#103,.T.);
#70=FACE_OUTER_BOUND('',#105,.T.);
#71=FACE_OUTER_BOUND('',#107,.T.);
#72=FACE_OUTER_BOUND('',#109,.T.);
#73=FACE_OUTER_BOUND('',#112,.T.);
#74=FACE_OUTER_BOUND('',#114,.T.);
#75=FACE_OUTER_BOUND('',#116,.T.);
#76=FACE_OUTER_BOUND('',#118,.T.);
#77=FACE_OUTER_BOUND('',#125,.T.);
#78=FACE_OUTER_BOUND('',#126,.T.);
#79=EDGE_LOOP('',(#261,#262,#263,#264));
#80=EDGE_LOOP('',(#265,#266,#267,#268));
#81=EDGE_LOOP('',(#269,#270,#271,#272));
#82=EDGE_LOOP('',(#273,#274,#275,#276));
#83=EDGE_LOOP('',(#277,#278,#279,#280));
#84=EDGE_LOOP('',(#281));
#85=EDGE_LOOP('',(#282));
#86=EDGE_LOOP('',(#283));
#87=EDGE_LOOP('',(#284));
#88=EDGE_LOOP('',(#285));
#89=EDGE_LOOP('',(#286));
#90=EDGE_LOOP('',(#287));
#91=EDGE_LOOP('',(#288));
#92=EDGE_LOOP('',(#289));
#93=EDGE_LOOP('',(#290));
#94=EDGE_LOOP('',(#291));
#95=EDGE_LOOP('',(#292));
#96=EDGE_LOOP('',(#293));
#97=EDGE_LOOP('',(#294));
#98=EDGE_LOOP('',(#295));
#99=EDGE_LOOP('',(#296));
#100=EDGE_LOOP('',(#297));
#101=EDGE_LOOP('',(#298));
#102=EDGE_LOOP('',(#299));
#103=EDGE_LOOP('',(#300));
#104=EDGE_LOOP('',(#301));
#105=EDGE_LOOP('',(#302));
#106=EDGE_LOOP('',(#303));
#107=EDGE_LOOP('',(#304));
#108=EDGE_LOOP('',(#305));
#109=EDGE_LOOP('',(#306,#307,#308,#309));
#110=EDGE_LOOP('',(#310));
#111=EDGE_LOOP('',(#311));
#112=EDGE_LOOP('',(#312,#313));
#113=EDGE_LOOP('',(#314));
#114=EDGE_LOOP('',(#315,#316));
#115=EDGE_LOOP('',(#317));
#116=EDGE_LOOP('',(#318));
#117=EDGE_LOOP('',(#319,#320,#321,#322,#323,#324,#325,#326));
#118=EDGE_LOOP('',(#327));
#119=EDGE_LOOP('',(#328,#329,#330,#331));
#120=EDGE_LOOP('',(#332));
#121=EDGE_LOOP('',(#333));
#122=EDGE_LOOP('',(#334));
#123=EDGE_LOOP('',(#335));
#124=EDGE_LOOP('',(#336));
#125=EDGE_LOOP('',(#337,#338,#339,#340));
#126=EDGE_LOOP('',(#341,#342,#343,#344));
#127=LINE('',#564,#143);
#128=LINE('',#567,#144);
#129=LINE('',#570,#145);
#130=LINE('',#572,#146);
#131=LINE('',#573,#147);
#132=LINE('',#576,#148);
#133=LINE('',#578,#149);
#134=LINE('',#579,#150);
#135=LINE('',#636,#151);
#136=LINE('',#639,#152);
#137=LINE('',#643,#153);
#138=LINE('',#648,#154);
#139=LINE('',#653,#155);
#140=LINE('',#654,#156);
#141=LINE('',#655,#157);
#142=LINE('',#656,#158);
#143=VECTOR('',#444,10.);
#144=VECTOR('',#447,10.);
#145=VECTOR('',#450,10.);
#146=VECTOR('',#451,10.);
#147=VECTOR('',#452,10.);
#148=VECTOR('',#455,10.);
#149=VECTOR('',#456,10.);
#150=VECTOR('',#457,10.);
#151=VECTOR('',#530,10.);
#152=VECTOR('',#533,10.);
#153=VECTOR('',#536,10.);
#154=VECTOR('',#541,10.);
#155=VECTOR('',#548,10.);
#156=VECTOR('',#549,10.);
#157=VECTOR('',#550,10.);
#158=VECTOR('',#551,10.);
#159=CIRCLE('',#388,3.);
#160=CIRCLE('',#389,3.);
#161=CIRCLE('',#393,3.);
#162=CIRCLE('',#394,3.);
#163=CIRCLE('',#397,9.);
#164=CIRCLE('',#398,9.);
#165=CIRCLE('',#401,12.5);
#166=CIRCLE('',#402,11.9226497308104);
#167=CIRCLE('',#404,12.5);
#168=CIRCLE('',#407,6.5);
#169=CIRCLE('',#408,3.3);
#170=CIRCLE('',#410,3.3);
#171=CIRCLE('',#412,6.5);
#172=CIRCLE('',#413,3.3);
#173=CIRCLE('',#415,3.3);
#174=CIRCLE('',#417,6.5);
#175=CIRCLE('',#418,3.3);
#176=CIRCLE('',#420,3.3);
#177=CIRCLE('',#422,6.5);
#178=CIRCLE('',#423,3.3);
#179=CIRCLE('',#425,3.3);
#180=CIRCLE('',#427,27.5);
#181=CIRCLE('',#428,27.5);
#182=CIRCLE('',#430,27.5);
#183=CIRCLE('',#432,27.5);
#184=CIRCLE('',#434,27.5);
#185=VERTEX_POINT('',#560);
#186=VERTEX_POINT('',#561);
#187=VERTEX_POINT('',#563);
#188=VERTEX_POINT('',#565);
#189=VERTEX_POINT('',#569);
#190=VERTEX_POINT('',#571);
#191=VERTEX_POINT('',#575);
#192=VERTEX_POINT('',#577);
#193=VERTEX_POINT('',#585);
#194=VERTEX_POINT('',#587);
#195=VERTEX_POINT('',#591);
#196=VERTEX_POINT('',#593);
#197=VERTEX_POINT('',#596);
#198=VERTEX_POINT('',#600);
#199=VERTEX_POINT('',#602);
#200=VERTEX_POINT('',#605);
#201=VERTEX_POINT('',#608);
#202=VERTEX_POINT('',#610);
#203=VERTEX_POINT('',#613);
#204=VERTEX_POINT('',#616);
#205=VERTEX_POINT('',#618);
#206=VERTEX_POINT('',#621);
#207=VERTEX_POINT('',#624);
#208=VERTEX_POINT('',#626);
#209=VERTEX_POINT('',#629);
#210=VERTEX_POINT('',#632);
#211=VERTEX_POINT('',#633);
#212=VERTEX_POINT('',#635);
#213=VERTEX_POINT('',#637);
#214=VERTEX_POINT('',#641);
#215=VERTEX_POINT('',#642);
#216=VERTEX_POINT('',#646);
#217=VERTEX_POINT('',#647);
#218=VERTEX_POINT('',#651);
#219=EDGE_CURVE('',#185,#186,#159,.T.);
#220=EDGE_CURVE('',#185,#187,#127,.T.);
#221=EDGE_CURVE('',#187,#188,#160,.T.);
#222=EDGE_CURVE('',#186,#188,#128,.T.);
#223=EDGE_CURVE('',#189,#185,#129,.T.);
#224=EDGE_CURVE('',#189,#190,#130,.T.);
#225=EDGE_CURVE('',#190,#187,#131,.T.);
#226=EDGE_CURVE('',#186,#191,#132,.T.);
#227=EDGE_CURVE('',#188,#192,#133,.T.);
#228=EDGE_CURVE('',#191,#192,#134,.T.);
#229=EDGE_CURVE('',#191,#189,#161,.T.);
#230=EDGE_CURVE('',#192,#190,#162,.T.);
#231=EDGE_CURVE('',#193,#193,#163,.T.);
#232=EDGE_CURVE('',#194,#194,#164,.T.);
#233=EDGE_CURVE('',#195,#195,#165,.T.);
#234=EDGE_CURVE('',#196,#196,#166,.T.);
#235=EDGE_CURVE('',#197,#197,#167,.T.);
#236=EDGE_CURVE('',#198,#198,#168,.T.);
#237=EDGE_CURVE('',#199,#199,#169,.T.);
#238=EDGE_CURVE('',#200,#200,#170,.T.);
#239=EDGE_CURVE('',#201,#201,#171,.T.);
#240=EDGE_CURVE('',#202,#202,#172,.T.);
#241=EDGE_CURVE('',#203,#203,#173,.T.);
#242=EDGE_CURVE('',#204,#204,#174,.T.);
#243=EDGE_CURVE('',#205,#205,#175,.T.);
#244=EDGE_CURVE('',#206,#206,#176,.T.);
#245=EDGE_CURVE('',#207,#207,#177,.T.);
#246=EDGE_CURVE('',#208,#208,#178,.T.);
#247=EDGE_CURVE('',#209,#209,#179,.T.);
#248=EDGE_CURVE('',#210,#211,#180,.T.);
#249=EDGE_CURVE('',#212,#211,#135,.T.);
#250=EDGE_CURVE('',#212,#213,#181,.T.);
#251=EDGE_CURVE('',#213,#210,#136,.T.);
#252=EDGE_CURVE('',#214,#215,#137,.T.);
#253=EDGE_CURVE('',#215,#214,#182,.T.);
#254=EDGE_CURVE('',#216,#217,#138,.T.);
#255=EDGE_CURVE('',#217,#216,#183,.T.);
#256=EDGE_CURVE('',#218,#218,#184,.T.);
#257=EDGE_CURVE('',#213,#215,#139,.T.);
#258=EDGE_CURVE('',#216,#212,#140,.T.);
#259=EDGE_CURVE('',#211,#217,#141,.T.);
#260=EDGE_CURVE('',#214,#210,#142,.T.);
#261=ORIENTED_EDGE('',*,*,#219,.F.);
#262=ORIENTED_EDGE('',*,*,#220,.T.);
#263=ORIENTED_EDGE('',*,*,#221,.T.);
#264=ORIENTED_EDGE('',*,*,#222,.F.);
#265=ORIENTED_EDGE('',*,*,#223,.F.);
#266=ORIENTED_EDGE('',*,*,#224,.T.);
#267=ORIENTED_EDGE('',*,*,#225,.T.);
#268=ORIENTED_EDGE('',*,*,#220,.F.);
#269=ORIENTED_EDGE('',*,*,#226,.F.);
#270=ORIENTED_EDGE('',*,*,#222,.T.);
#271=ORIENTED_EDGE('',*,*,#227,.T.);
#272=ORIENTED_EDGE('',*,*,#228,.F.);
#273=ORIENTED_EDGE('',*,*,#229,.F.);
#274=ORIENTED_EDGE('',*,*,#228,.T.);
#275=ORIENTED_EDGE('',*,*,#230,.T.);
#276=ORIENTED_EDGE('',*,*,#224,.F.);
#277=ORIENTED_EDGE('',*,*,#230,.F.);
#278=ORIENTED_EDGE('',*,*,#227,.F.);
#279=ORIENTED_EDGE('',*,*,#221,.F.);
#280=ORIENTED_EDGE('',*,*,#225,.F.);
#281=ORIENTED_EDGE('',*,*,#231,.T.);
#282=ORIENTED_EDGE('',*,*,#232,.F.);
#283=ORIENTED_EDGE('',*,*,#231,.F.);
#284=ORIENTED_EDGE('',*,*,#233,.T.);
#285=ORIENTED_EDGE('',*,*,#234,.T.);
#286=ORIENTED_EDGE('',*,*,#235,.F.);
#287=ORIENTED_EDGE('',*,*,#233,.F.);
#288=ORIENTED_EDGE('',*,*,#234,.F.);
#289=ORIENTED_EDGE('',*,*,#232,.T.);
#290=ORIENTED_EDGE('',*,*,#236,.F.);
#291=ORIENTED_EDGE('',*,*,#237,.F.);
#292=ORIENTED_EDGE('',*,*,#238,.F.);
#293=ORIENTED_EDGE('',*,*,#237,.T.);
#294=ORIENTED_EDGE('',*,*,#239,.F.);
#295=ORIENTED_EDGE('',*,*,#240,.F.);
#296=ORIENTED_EDGE('',*,*,#241,.F.);
#297=ORIENTED_EDGE('',*,*,#240,.T.);
#298=ORIENTED_EDGE('',*,*,#242,.F.);
#299=ORIENTED_EDGE('',*,*,#243,.F.);
#300=ORIENTED_EDGE('',*,*,#244,.F.);
#301=ORIENTED_EDGE('',*,*,#243,.T.);
#302=ORIENTED_EDGE('',*,*,#245,.F.);
#303=ORIENTED_EDGE('',*,*,#246,.F.);
#304=ORIENTED_EDGE('',*,*,#247,.F.);
#305=ORIENTED_EDGE('',*,*,#246,.T.);
#306=ORIENTED_EDGE('',*,*,#248,.T.);
#307=ORIENTED_EDGE('',*,*,#249,.F.);
#308=ORIENTED_EDGE('',*,*,#250,.T.);
#309=ORIENTED_EDGE('',*,*,#251,.T.);
#310=ORIENTED_EDGE('',*,*,#236,.T.);
#311=ORIENTED_EDGE('',*,*,#239,.T.);
#312=ORIENTED_EDGE('',*,*,#252,.T.);
#313=ORIENTED_EDGE('',*,*,#253,.T.);
#314=ORIENTED_EDGE('',*,*,#242,.T.);
#315=ORIENTED_EDGE('',*,*,#254,.T.);
#316=ORIENTED_EDGE('',*,*,#255,.T.);
#317=ORIENTED_EDGE('',*,*,#245,.T.);
#318=ORIENTED_EDGE('',*,*,#256,.F.);
#319=ORIENTED_EDGE('',*,*,#253,.F.);
#320=ORIENTED_EDGE('',*,*,#257,.F.);
#321=ORIENTED_EDGE('',*,*,#250,.F.);
#322=ORIENTED_EDGE('',*,*,#258,.F.);
#323=ORIENTED_EDGE('',*,*,#255,.F.);
#324=ORIENTED_EDGE('',*,*,#259,.F.);
#325=ORIENTED_EDGE('',*,*,#248,.F.);
#326=ORIENTED_EDGE('',*,*,#260,.F.);
#327=ORIENTED_EDGE('',*,*,#256,.T.);
#328=ORIENTED_EDGE('',*,*,#219,.T.);
#329=ORIENTED_EDGE('',*,*,#226,.T.);
#330=ORIENTED_EDGE('',*,*,#229,.T.);
#331=ORIENTED_EDGE('',*,*,#223,.T.);
#332=ORIENTED_EDGE('',*,*,#235,.T.);
#333=ORIENTED_EDGE('',*,*,#238,.T.);
#334=ORIENTED_EDGE('',*,*,#241,.T.);
#335=ORIENTED_EDGE('',*,*,#244,.T.);
#336=ORIENTED_EDGE('',*,*,#247,.T.);
#337=ORIENTED_EDGE('',*,*,#260,.T.);
#338=ORIENTED_EDGE('',*,*,#251,.F.);
#339=ORIENTED_EDGE('',*,*,#257,.T.);
#340=ORIENTED_EDGE('',*,*,#252,.F.);
#341=ORIENTED_EDGE('',*,*,#258,.T.);
#342=ORIENTED_EDGE('',*,*,#249,.T.);
#343=ORIENTED_EDGE('',*,*,#259,.T.);
#344=ORIENTED_EDGE('',*,*,#254,.F.);
#345=CYLINDRICAL_SURFACE('',#387,3.);
#346=CYLINDRICAL_SURFACE('',#392,3.);
#347=CYLINDRICAL_SURFACE('',#396,9.);
#348=CYLINDRICAL_SURFACE('',#403,12.5);
#349=CYLINDRICAL_SURFACE('',#409,3.3);
#350=CYLINDRICAL_SURFACE('',#414,3.3);
#351=CYLINDRICAL_SURFACE('',#419,3.3);
#352=CYLINDRICAL_SURFACE('',#424,3.3);
#353=CYLINDRICAL_SURFACE('',#433,27.5);
#354=ADVANCED_FACE('',(#54),#345,.F.);
#355=ADVANCED_FACE('',(#55),#43,.F.);
#356=ADVANCED_FACE('',(#56),#44,.F.);
#357=ADVANCED_FACE('',(#57),#346,.F.);
#358=ADVANCED_FACE('',(#58),#45,.T.);
#359=ADVANCED_FACE('',(#59,#20),#347,.F.);
#360=ADVANCED_FACE('',(#60),#46,.T.);
#361=ADVANCED_FACE('',(#61,#21),#15,.T.);
#362=ADVANCED_FACE('',(#62,#22),#348,.T.);
#363=ADVANCED_FACE('',(#63,#23),#47,.T.);
#364=ADVANCED_FACE('',(#64,#24),#16,.F.);
#365=ADVANCED_FACE('',(#65,#25),#349,.F.);
#366=ADVANCED_FACE('',(#66,#26),#17,.F.);
#367=ADVANCED_FACE('',(#67,#27),#350,.F.);
#368=ADVANCED_FACE('',(#68,#28),#18,.F.);
#369=ADVANCED_FACE('',(#69,#29),#351,.F.);
#370=ADVANCED_FACE('',(#70,#30),#19,.F.);
#371=ADVANCED_FACE('',(#71,#31),#352,.F.);
#372=ADVANCED_FACE('',(#72,#32,#33),#48,.F.);
#373=ADVANCED_FACE('',(#73,#34),#49,.F.);
#374=ADVANCED_FACE('',(#74,#35),#50,.F.);
#375=ADVANCED_FACE('',(#75,#36),#353,.T.);
#376=ADVANCED_FACE('',(#76,#37,#38,#39,#40,#41,#42),#51,.T.);
#377=ADVANCED_FACE('',(#77),#52,.T.);
#378=ADVANCED_FACE('',(#78),#53,.T.);
#379=CLOSED_SHELL('',(#354,#355,#356,#357,#358,#359,#360,#361,#362,#363,
#364,#365,#366,#367,#368,#369,#370,#371,#372,#373,#374,#375,#376,#377,#378));
#380=DATE_TIME_ROLE('creation_date');
#381=APPLIED_DATE_AND_TIME_ASSIGNMENT(#382,#380,(#674));
#382=DATE_AND_TIME(#383,#384);
#383=CALENDAR_DATE(2017,28,9);
#384=LOCAL_TIME(14,20,30.,#385);
#385=COORDINATED_UNIVERSAL_TIME_OFFSET(0,0,.BEHIND.);
#386=AXIS2_PLACEMENT_3D('placement',#558,#438,#439);
#387=AXIS2_PLACEMENT_3D('',#559,#440,#441);
#388=AXIS2_PLACEMENT_3D('',#562,#442,#443);
#389=AXIS2_PLACEMENT_3D('',#566,#445,#446);
#390=AXIS2_PLACEMENT_3D('',#568,#448,#449);
#391=AXIS2_PLACEMENT_3D('',#574,#453,#454);
#392=AXIS2_PLACEMENT_3D('',#580,#458,#459);
#393=AXIS2_PLACEMENT_3D('',#581,#460,#461);
#394=AXIS2_PLACEMENT_3D('',#582,#462,#463);
#395=AXIS2_PLACEMENT_3D('',#583,#464,#465);
#396=AXIS2_PLACEMENT_3D('',#584,#466,#467);
#397=AXIS2_PLACEMENT_3D('',#586,#468,#469);
#398=AXIS2_PLACEMENT_3D('',#588,#470,#471);
#399=AXIS2_PLACEMENT_3D('',#589,#472,#473);
#400=AXIS2_PLACEMENT_3D('',#590,#474,#475);
#401=AXIS2_PLACEMENT_3D('',#592,#476,#477);
#402=AXIS2_PLACEMENT_3D('',#594,#478,#479);
#403=AXIS2_PLACEMENT_3D('',#595,#480,#481);
#404=AXIS2_PLACEMENT_3D('',#597,#482,#483);
#405=AXIS2_PLACEMENT_3D('',#598,#484,#485);
#406=AXIS2_PLACEMENT_3D('',#599,#486,#487);
#407=AXIS2_PLACEMENT_3D('',#601,#488,#489);
#408=AXIS2_PLACEMENT_3D('',#603,#490,#491);
#409=AXIS2_PLACEMENT_3D('',#604,#492,#493);
#410=AXIS2_PLACEMENT_3D('',#606,#494,#495);
#411=AXIS2_PLACEMENT_3D('',#607,#496,#497);
#412=AXIS2_PLACEMENT_3D('',#609,#498,#499);
#413=AXIS2_PLACEMENT_3D('',#611,#500,#501);
#414=AXIS2_PLACEMENT_3D('',#612,#502,#503);
#415=AXIS2_PLACEMENT_3D('',#614,#504,#505);
#416=AXIS2_PLACEMENT_3D('',#615,#506,#507);
#417=AXIS2_PLACEMENT_3D('',#617,#508,#509);
#418=AXIS2_PLACEMENT_3D('',#619,#510,#511);
#419=AXIS2_PLACEMENT_3D('',#620,#512,#513);
#420=AXIS2_PLACEMENT_3D('',#622,#514,#515);
#421=AXIS2_PLACEMENT_3D('',#623,#516,#517);
#422=AXIS2_PLACEMENT_3D('',#625,#518,#519);
#423=AXIS2_PLACEMENT_3D('',#627,#520,#521);
#424=AXIS2_PLACEMENT_3D('',#628,#522,#523);
#425=AXIS2_PLACEMENT_3D('',#630,#524,#525);
#426=AXIS2_PLACEMENT_3D('',#631,#526,#527);
#427=AXIS2_PLACEMENT_3D('',#634,#528,#529);
#428=AXIS2_PLACEMENT_3D('',#638,#531,#532);
#429=AXIS2_PLACEMENT_3D('',#640,#534,#535);
#430=AXIS2_PLACEMENT_3D('',#644,#537,#538);
#431=AXIS2_PLACEMENT_3D('',#645,#539,#540);
#432=AXIS2_PLACEMENT_3D('',#649,#542,#543);
#433=AXIS2_PLACEMENT_3D('',#650,#544,#545);
#434=AXIS2_PLACEMENT_3D('',#652,#546,#547);
#435=AXIS2_PLACEMENT_3D('',#657,#552,#553);
#436=AXIS2_PLACEMENT_3D('',#658,#554,#555);
#437=AXIS2_PLACEMENT_3D('',#659,#556,#557);
#438=DIRECTION('axis',(0.,0.,1.));
#439=DIRECTION('refdir',(1.,0.,0.));
#440=DIRECTION('center_axis',(0.,0.,-1.));
#441=DIRECTION('ref_axis',(0.707106781186548,-0.707106781186547,0.));
#442=DIRECTION('center_axis',(0.,0.,-1.));
#443=DIRECTION('ref_axis',(0.707106781186548,-0.707106781186547,0.));
#444=DIRECTION('',(0.,0.,-1.));
#445=DIRECTION('center_axis',(0.,0.,-1.));
#446=DIRECTION('ref_axis',(0.707106781186548,-0.707106781186547,0.));
#447=DIRECTION('',(0.,0.,-1.));
#448=DIRECTION('center_axis',(-0.707106781186546,0.707106781186549,0.));
#449=DIRECTION('ref_axis',(0.707106781186549,0.707106781186546,0.));
#450=DIRECTION('',(0.707106781186549,0.707106781186546,0.));
#451=DIRECTION('',(0.,0.,-1.));
#452=DIRECTION('',(0.707106781186549,0.707106781186546,0.));
#453=DIRECTION('center_axis',(0.70710678118655,-0.707106781186545,0.));
#454=DIRECTION('ref_axis',(-0.707106781186545,-0.70710678118655,0.));
#455=DIRECTION('',(-0.707106781186545,-0.70710678118655,0.));
#456=DIRECTION('',(-0.707106781186545,-0.70710678118655,0.));
#457=DIRECTION('',(0.,0.,-1.));
#458=DIRECTION('center_axis',(0.,0.,-1.));
#459=DIRECTION('ref_axis',(-0.707106781186542,0.707106781186553,0.));
#460=DIRECTION('center_axis',(0.,0.,-1.));
#461=DIRECTION('ref_axis',(-0.707106781186542,0.707106781186553,0.));
#462=DIRECTION('center_axis',(0.,0.,-1.));
#463=DIRECTION('ref_axis',(-0.707106781186542,0.707106781186553,0.));
#464=DIRECTION('center_axis',(0.,0.,1.));
#465=DIRECTION('ref_axis',(1.,0.,0.));
#466=DIRECTION('center_axis',(0.,0.,-1.));
#467=DIRECTION('ref_axis',(-1.,0.,0.));
#468=DIRECTION('center_axis',(0.,0.,-1.));
#469=DIRECTION('ref_axis',(-1.,0.,0.));
#470=DIRECTION('center_axis',(0.,0.,-1.));
#471=DIRECTION('ref_axis',(-1.,0.,0.));
#472=DIRECTION('center_axis',(0.,0.,1.));
#473=DIRECTION('ref_axis',(1.,0.,0.));
#474=DIRECTION('center_axis',(0.,0.,-1.));
#475=DIRECTION('ref_axis',(-1.,0.,0.));
#476=DIRECTION('center_axis',(0.,0.,1.));
#477=DIRECTION('ref_axis',(-1.,0.,0.));
#478=DIRECTION('center_axis',(0.,0.,-1.));
#479=DIRECTION('ref_axis',(-1.,0.,0.));
#480=DIRECTION('center_axis',(0.,0.,1.));
#481=DIRECTION('ref_axis',(-1.,0.,0.));
#482=DIRECTION('center_axis',(0.,0.,-1.));
#483=DIRECTION('ref_axis',(-1.,0.,0.));
#484=DIRECTION('center_axis',(0.,0.,1.));
#485=DIRECTION('ref_axis',(1.,0.,0.));
#486=DIRECTION('center_axis',(0.,0.,-1.));
#487=DIRECTION('ref_axis',(-1.,0.,0.));
#488=DIRECTION('center_axis',(0.,0.,1.));
#489=DIRECTION('ref_axis',(-1.,0.,0.));
#490=DIRECTION('center_axis',(0.,0.,-1.));
#491=DIRECTION('ref_axis',(-1.,0.,0.));
#492=DIRECTION('center_axis',(0.,0.,-1.));
#493=DIRECTION('ref_axis',(-1.,0.,0.));
#494=DIRECTION('center_axis',(0.,0.,-1.));
#495=DIRECTION('ref_axis',(-1.,0.,0.));
#496=DIRECTION('center_axis',(0.,0.,-1.));
#497=DIRECTION('ref_axis',(-1.,0.,0.));
#498=DIRECTION('center_axis',(0.,0.,1.));
#499=DIRECTION('ref_axis',(-1.,0.,0.));
#500=DIRECTION('center_axis',(0.,0.,-1.));
#501=DIRECTION('ref_axis',(-1.,0.,0.));
#502=DIRECTION('center_axis',(0.,0.,-1.));
#503=DIRECTION('ref_axis',(-1.,0.,0.));
#504=DIRECTION('center_axis',(0.,0.,-1.));
#505=DIRECTION('ref_axis',(-1.,0.,0.));
#506=DIRECTION('center_axis',(0.,0.,-1.));
#507=DIRECTION('ref_axis',(-1.,0.,0.));
#508=DIRECTION('center_axis',(0.,0.,1.));
#509=DIRECTION('ref_axis',(-1.,0.,0.));
#510=DIRECTION('center_axis',(0.,0.,-1.));
#511=DIRECTION('ref_axis',(-1.,0.,0.));
#512=DIRECTION('center_axis',(0.,0.,-1.));
#513=DIRECTION('ref_axis',(-1.,0.,0.));
#514=DIRECTION('center_axis',(0.,0.,-1.));
#515=DIRECTION('ref_axis',(-1.,0.,0.));
#516=DIRECTION('center_axis',(0.,0.,-1.));
#517=DIRECTION('ref_axis',(-1.,0.,0.));
#518=DIRECTION('center_axis',(0.,0.,1.));
#519=DIRECTION('ref_axis',(-1.,0.,0.));
#520=DIRECTION('center_axis',(0.,0.,-1.));
#521=DIRECTION('ref_axis',(-1.,0.,0.));
#522=DIRECTION('center_axis',(0.,0.,-1.));
#523=DIRECTION('ref_axis',(-1.,0.,0.));
#524=DIRECTION('center_axis',(0.,0.,-1.));
#525=DIRECTION('ref_axis',(-1.,0.,0.));
#526=DIRECTION('center_axis',(0.,0.,1.));
#527=DIRECTION('ref_axis',(1.,0.,0.));
#528=DIRECTION('center_axis',(0.,0.,-1.));
#529=DIRECTION('ref_axis',(1.,0.,0.));
#530=DIRECTION('',(1.,4.44089209850063E-16,0.));
#531=DIRECTION('center_axis',(0.,0.,-1.));
#532=DIRECTION('ref_axis',(1.,0.,0.));
#533=DIRECTION('',(1.,0.,0.));
#534=DIRECTION('center_axis',(0.,0.,1.));
#535=DIRECTION('ref_axis',(1.,0.,0.));
#536=DIRECTION('',(-1.,0.,0.));
#537=DIRECTION('center_axis',(0.,0.,-1.));
#538=DIRECTION('ref_axis',(-1.,0.,0.));
#539=DIRECTION('center_axis',(0.,0.,1.));
#540=DIRECTION('ref_axis',(1.,0.,0.));
#541=DIRECTION('',(1.,4.44089209850063E-16,0.));
#542=DIRECTION('center_axis',(0.,0.,-1.));
#543=DIRECTION('ref_axis',(-1.,0.,0.));
#544=DIRECTION('center_axis',(0.,0.,1.));
#545=DIRECTION('ref_axis',(-1.,0.,0.));
#546=DIRECTION('center_axis',(0.,0.,1.));
#547=DIRECTION('ref_axis',(-1.,0.,0.));
#548=DIRECTION('',(0.,0.,1.));
#549=DIRECTION('',(0.,0.,-1.));
#550=DIRECTION('',(0.,0.,1.));
#551=DIRECTION('',(0.,0.,-1.));
#552=DIRECTION('center_axis',(0.,0.,1.));
#553=DIRECTION('ref_axis',(1.,0.,0.));
#554=DIRECTION('center_axis',(0.,1.,0.));
#555=DIRECTION('ref_axis',(-1.,0.,0.));
#556=DIRECTION('center_axis',(4.44089209850063E-16,-1.,0.));
#557=DIRECTION('ref_axis',(1.,3.5527136788005E-16,0.));
#558=CARTESIAN_POINT('',(0.,0.,0.));
#559=CARTESIAN_POINT('Origin',(14.4956890143242,14.4956890143242,17.));
#560=CARTESIAN_POINT('',(12.3743686707646,16.6170093578839,17.));
#561=CARTESIAN_POINT('',(16.6170093578839,12.3743686707646,17.));
#562=CARTESIAN_POINT('Origin',(14.4956890143242,14.4956890143242,17.));
#563=CARTESIAN_POINT('',(12.3743686707646,16.6170093578839,13.));
#564=CARTESIAN_POINT('',(12.3743686707646,16.6170093578839,17.));
#565=CARTESIAN_POINT('',(16.6170093578839,12.3743686707646,13.));
#566=CARTESIAN_POINT('Origin',(14.4956890143242,14.4956890143242,13.));
#567=CARTESIAN_POINT('',(16.6170093578839,12.3743686707646,17.));
#568=CARTESIAN_POINT('Origin',(11.6672618895781,15.9099025766973,17.));
#569=CARTESIAN_POINT('',(11.6672618895781,15.9099025766973,17.));
#570=CARTESIAN_POINT('',(4.7729707730092,9.01561146012851,17.));
#571=CARTESIAN_POINT('',(11.6672618895781,15.9099025766973,13.));
#572=CARTESIAN_POINT('',(11.6672618895781,15.9099025766973,17.));
#573=CARTESIAN_POINT('',(12.3743686707646,16.6170093578839,13.));
#574=CARTESIAN_POINT('Origin',(16.6170093578839,12.3743686707646,17.));
#575=CARTESIAN_POINT('',(15.9099025766973,11.667261889578,17.));
#576=CARTESIAN_POINT('',(9.36916485072178,5.12652416360246,17.));
#577=CARTESIAN_POINT('',(15.9099025766973,11.667261889578,13.));
#578=CARTESIAN_POINT('',(15.9099025766973,11.667261889578,13.));
#579=CARTESIAN_POINT('',(15.9099025766973,11.667261889578,17.));
#580=CARTESIAN_POINT('Origin',(13.7885822331377,13.7885822331377,17.));
#581=CARTESIAN_POINT('Origin',(13.7885822331377,13.7885822331377,17.));
#582=CARTESIAN_POINT('Origin',(13.7885822331377,13.7885822331377,13.));
#583=CARTESIAN_POINT('Origin',(13.0581265754073,13.0581265754073,13.));
#584=CARTESIAN_POINT('Origin',(0.,0.,22.));
#585=CARTESIAN_POINT('',(9.,1.10218211923262E-15,12.));
#586=CARTESIAN_POINT('Origin',(0.,0.,12.));
#587=CARTESIAN_POINT('',(9.,1.10218211923262E-15,22.));
#588=CARTESIAN_POINT('Origin',(0.,0.,22.));
#589=CARTESIAN_POINT('Origin',(-9.14235935584316E-16,2.05596856412066E-16,
12.));
#590=CARTESIAN_POINT('Origin',(0.,0.,21.5));
#591=CARTESIAN_POINT('',(12.5,1.53080849893419E-15,21.));
#592=CARTESIAN_POINT('Origin',(0.,0.,21.));
#593=CARTESIAN_POINT('',(11.9226497308104,-1.4601034830192E-15,22.));
#594=CARTESIAN_POINT('Origin',(0.,0.,22.));
#595=CARTESIAN_POINT('Origin',(0.,0.,17.));
#596=CARTESIAN_POINT('',(12.5,1.53080849893419E-15,17.));
#597=CARTESIAN_POINT('Origin',(0.,0.,17.));
#598=CARTESIAN_POINT('Origin',(-7.19686321377933E-16,0.,22.));
#599=CARTESIAN_POINT('Origin',(20.,0.,1.6));
#600=CARTESIAN_POINT('',(13.5,0.,0.));
#601=CARTESIAN_POINT('Origin',(20.,0.,0.));
#602=CARTESIAN_POINT('',(16.7,0.,3.2));
#603=CARTESIAN_POINT('Origin',(20.,0.,3.19999999999999));
#604=CARTESIAN_POINT('Origin',(20.,0.,79.6178371974522));
#605=CARTESIAN_POINT('',(23.3,-4.04133443718627E-16,17.));
#606=CARTESIAN_POINT('Origin',(20.,0.,17.));
#607=CARTESIAN_POINT('Origin',(-20.,0.,1.6));
#608=CARTESIAN_POINT('',(-26.5,0.,0.));
#609=CARTESIAN_POINT('Origin',(-20.,0.,0.));
#610=CARTESIAN_POINT('',(-23.3,0.,3.2));
#611=CARTESIAN_POINT('Origin',(-20.,0.,3.19999999999999));
#612=CARTESIAN_POINT('Origin',(-20.,0.,79.6178371974522));
#613=CARTESIAN_POINT('',(-16.7,-4.04133443718627E-16,17.));
#614=CARTESIAN_POINT('Origin',(-20.,0.,17.));
#615=CARTESIAN_POINT('Origin',(0.,20.,13.6));
#616=CARTESIAN_POINT('',(-6.5,20.,12.));
#617=CARTESIAN_POINT('Origin',(0.,20.,12.));
#618=CARTESIAN_POINT('',(-3.3,20.,15.2));
#619=CARTESIAN_POINT('Origin',(0.,20.,15.2));
#620=CARTESIAN_POINT('Origin',(0.,20.,91.6178371974522));
#621=CARTESIAN_POINT('',(3.3,20.,17.));
#622=CARTESIAN_POINT('Origin',(0.,20.,17.));
#623=CARTESIAN_POINT('Origin',(0.,-20.,13.6));
#624=CARTESIAN_POINT('',(-6.5,-20.,12.));
#625=CARTESIAN_POINT('Origin',(0.,-20.,12.));
#626=CARTESIAN_POINT('',(-3.3,-20.,15.2));
#627=CARTESIAN_POINT('Origin',(0.,-20.,15.2));
#628=CARTESIAN_POINT('Origin',(0.,-20.,91.6178371974522));
#629=CARTESIAN_POINT('',(3.3,-20.,17.));
#630=CARTESIAN_POINT('Origin',(0.,-20.,17.));
#631=CARTESIAN_POINT('Origin',(-5.98479599211999E-15,-12.,0.));
#632=CARTESIAN_POINT('',(24.9799919935936,11.5,0.));
#633=CARTESIAN_POINT('',(24.4948974278318,-12.5,0.));
#634=CARTESIAN_POINT('Origin',(0.,0.,0.));
#635=CARTESIAN_POINT('',(-24.4948974278318,-12.5,0.));
#636=CARTESIAN_POINT('',(-27.5,-12.5,0.));
#637=CARTESIAN_POINT('',(-24.9799919935936,11.5,0.));
#638=CARTESIAN_POINT('Origin',(0.,0.,0.));
#639=CARTESIAN_POINT('',(-27.5,11.5,0.));
#640=CARTESIAN_POINT('Origin',(-2.43380803013824E-15,0.,12.));
#641=CARTESIAN_POINT('',(24.9799919935936,11.5,12.));
#642=CARTESIAN_POINT('',(-24.9799919935936,11.5,12.));
#643=CARTESIAN_POINT('',(-27.5,11.5,12.));
#644=CARTESIAN_POINT('Origin',(0.,0.,12.));
#645=CARTESIAN_POINT('Origin',(-2.43380803013824E-15,0.,12.));
#646=CARTESIAN_POINT('',(-24.4948974278318,-12.5,12.));
#647=CARTESIAN_POINT('',(24.4948974278318,-12.5,12.));
#648=CARTESIAN_POINT('',(-27.5,-12.5,12.));
#649=CARTESIAN_POINT('Origin',(0.,0.,12.));
#650=CARTESIAN_POINT('Origin',(0.,0.,12.));
#651=CARTESIAN_POINT('',(27.5,3.36777869765522E-15,17.));
#652=CARTESIAN_POINT('Origin',(0.,0.,17.));
#653=CARTESIAN_POINT('',(-24.9799919935936,11.5,12.));
#654=CARTESIAN_POINT('',(-24.4948974278318,-12.5,12.));
#655=CARTESIAN_POINT('',(24.4948974278318,-12.5,12.));
#656=CARTESIAN_POINT('',(24.9799919935936,11.5,12.));
#657=CARTESIAN_POINT('Origin',(-2.43380803013824E-15,0.,17.));
#658=CARTESIAN_POINT('Origin',(27.5,11.5,0.));
#659=CARTESIAN_POINT('Origin',(-27.5,-12.5,0.));
#660=UNCERTAINTY_MEASURE_WITH_UNIT(LENGTH_MEASURE(0.01),#664,
'DISTANCE_ACCURACY_VALUE',
'Maximum model space distance between geometric entities at asserted c
onnectivities');
#661=UNCERTAINTY_MEASURE_WITH_UNIT(LENGTH_MEASURE(1.E-6),#664,
'DISTANCE_ACCURACY_VALUE',
'Maximum model space distance between geometric entities at asserted c
onnectivities');
#662=(
GEOMETRIC_REPRESENTATION_CONTEXT(3)
GLOBAL_UNCERTAINTY_ASSIGNED_CONTEXT((#660))
GLOBAL_UNIT_ASSIGNED_CONTEXT((#664,#667,#665))
REPRESENTATION_CONTEXT('','3D')
);
#663=(
GEOMETRIC_REPRESENTATION_CONTEXT(3)
GLOBAL_UNCERTAINTY_ASSIGNED_CONTEXT((#661))
GLOBAL_UNIT_ASSIGNED_CONTEXT((#664,#667,#665))
REPRESENTATION_CONTEXT('','3D')
);
#664=(
LENGTH_UNIT()
NAMED_UNIT(*)
SI_UNIT(.MILLI.,.METRE.)
);
#665=(
NAMED_UNIT(*)
SI_UNIT($,.STERADIAN.)
SOLID_ANGLE_UNIT()
);
#666=DIMENSIONAL_EXPONENTS(0.,0.,0.,0.,0.,0.,0.);
#667=(
CONVERSION_BASED_UNIT('degree',#669)
NAMED_UNIT(#666)
PLANE_ANGLE_UNIT()
);
#668=(
NAMED_UNIT(*)
PLANE_ANGLE_UNIT()
SI_UNIT($,.RADIAN.)
);
#669=PLANE_ANGLE_MEASURE_WITH_UNIT(PLANE_ANGLE_MEASURE(0.01745329252),#668);
#670=SHAPE_DEFINITION_REPRESENTATION(#671,#672);
#671=PRODUCT_DEFINITION_SHAPE('',$,#674);
#672=SHAPE_REPRESENTATION('',(#386),#662);
#673=PRODUCT_DEFINITION_CONTEXT('part definition',#678,'design');
#674=PRODUCT_DEFINITION('MT_WST00100291 Adapter','MT_WST00100291',#675,
#673);
#675=PRODUCT_DEFINITION_FORMATION('01',$,#680);
#676=PRODUCT_RELATED_PRODUCT_CATEGORY('MT_WST00100291','MT_WST00100291',
(#680));
#677=APPLICATION_PROTOCOL_DEFINITION('international standard',
'automotive_design',2009,#678);
#678=APPLICATION_CONTEXT(
'Core Data for Automotive Mechanical Design Process');
#679=PRODUCT_CONTEXT('part definition',#678,'mechanical');
#680=PRODUCT('MT_WST00100291 Adapter','MT_WST00100291',
'Norm.ipt Template',(#679));
#681=PRESENTATION_STYLE_ASSIGNMENT((#682));
#682=SURFACE_STYLE_USAGE(.BOTH.,#683);
#683=SURFACE_SIDE_STYLE('',(#684));
#684=SURFACE_STYLE_FILL_AREA(#685);
#685=FILL_AREA_STYLE('',(#686));
#686=FILL_AREA_STYLE_COLOUR('',#687);
#687=COLOUR_RGB('',0.811764705882353,0.8,0.823529411764706);
ENDSEC;
END-ISO-10303-21;
